ISO-10303-21;
HEADER;
/* Generated by software containing ST-Developer
 * from STEP Tools, Inc. (www.steptools.com) 
 */

FILE_DESCRIPTION(
/* description */ (''),
/* implementation_level */ '2;1');

FILE_NAME(
/* name */ 
'C:\\Users\\mitarbeiter\\Desktop\\3D\\Imported Components\\LS208163\\L
S208163.stp',
/* time_stamp */ '2016-10-06T13:48:35+02:00',
/* author */ ('mitarbeiter'),
/* organization */ (''),
/* preprocessor_version */ 'ST-DEVELOPER v15.2',
/* originating_system */ 'Autodesk Inventor 2014',
/* authorisation */ '');

FILE_SCHEMA (('AUTOMOTIVE_DESIGN { 1 0 10303 214 3 1 1 }'));
ENDSEC;

DATA;
#10=SHAPE_REPRESENTATION_RELATIONSHIP('SRR','None',#274,#11);
#11=ADVANCED_BREP_SHAPE_REPRESENTATION($,(#115),#268);
#12=STYLED_ITEM($,(#283),#115);
#13=CONICAL_SURFACE($,#127,2.,0.785398163397446);
#14=CONICAL_SURFACE($,#133,2.,0.785398163397447);
#15=CIRCLE($,#120,1.1);
#16=CIRCLE($,#122,1.1);
#17=CIRCLE($,#124,1.6);
#18=CIRCLE($,#126,1.4);
#19=CIRCLE($,#128,1.4);
#20=CIRCLE($,#129,2.);
#21=CIRCLE($,#132,2.);
#22=PLANE($,#119);
#23=PLANE($,#123);
#24=PLANE($,#125);
#25=FACE_BOUND($,#44,.T.);
#26=FACE_BOUND($,#48,.T.);
#27=FACE_BOUND($,#51,.T.);
#28=FACE_BOUND($,#53,.T.);
#29=FACE_BOUND($,#55,.T.);
#30=FACE_BOUND($,#57,.T.);
#31=FACE_BOUND($,#58,.T.);
#32=FACE_BOUND($,#60,.T.);
#33=FACE_OUTER_BOUND($,#43,.T.);
#34=FACE_OUTER_BOUND($,#45,.T.);
#35=FACE_OUTER_BOUND($,#46,.T.);
#36=FACE_OUTER_BOUND($,#47,.T.);
#37=FACE_OUTER_BOUND($,#49,.T.);
#38=FACE_OUTER_BOUND($,#50,.T.);
#39=FACE_OUTER_BOUND($,#52,.T.);
#40=FACE_OUTER_BOUND($,#54,.T.);
#41=FACE_OUTER_BOUND($,#56,.T.);
#42=FACE_OUTER_BOUND($,#59,.T.);
#43=EDGE_LOOP($,(#81));
#44=EDGE_LOOP($,(#82));
#45=EDGE_LOOP($,(#83));
#46=EDGE_LOOP($,(#84));
#47=EDGE_LOOP($,(#85));
#48=EDGE_LOOP($,(#86));
#49=EDGE_LOOP($,(#87));
#50=EDGE_LOOP($,(#88));
#51=EDGE_LOOP($,(#89));
#52=EDGE_LOOP($,(#90));
#53=EDGE_LOOP($,(#91));
#54=EDGE_LOOP($,(#92));
#55=EDGE_LOOP($,(#93));
#56=EDGE_LOOP($,(#94));
#57=EDGE_LOOP($,(#95));
#58=EDGE_LOOP($,(#96));
#59=EDGE_LOOP($,(#97));
#60=EDGE_LOOP($,(#98));
#61=B_SPLINE_CURVE_WITH_KNOTS($,3,(#173,#174,#175,#176,#177,#178,#179,#180,
#181,#182,#183,#184,#185,#186,#187,#188,#189,#190,#191,#192,#193,#194,#195,
#196,#197,#198,#199,#200,#201,#202,#203,#204,#205,#206,#207),
 .UNSPECIFIED.,.T.,.F.,(4,2,2,2,2,2,2,2,2,2,2,2,3,2,2,2,4),(0.170033296940674,
0.212449056737071,0.254864816533467,0.297465705207408,0.340066593881348,
0.382667482555288,0.425268371229229,0.467684131025625,0.510099890822022,
0.552515650618419,0.594931410414815,0.637532299088756,0.680133187762696,
0.722734076436636,0.765334965110577,0.807750724906973,0.85016648470337),
 .UNSPECIFIED.);
#62=B_SPLINE_CURVE_WITH_KNOTS($,3,(#209,#210,#211,#212,#213,#214,#215,#216,
#217,#218,#219,#220,#221,#222,#223,#224,#225,#226,#227,#228,#229,#230,#231,
#232,#233,#234,#235,#236,#237,#238,#239,#240,#241,#242,#243),
 .UNSPECIFIED.,.T.,.F.,(4,2,2,2,3,2,2,2,2,2,2,2,2,2,2,2,4),(0.509946141368369,
0.552351289248991,0.594756437129614,0.637342312810386,0.679928188491158,
0.722514064171931,0.765099939852703,0.807505087733325,0.849910235613948,
0.892315383494571,0.934720531375193,0.977306407055965,1.01989228273674,
1.06247815841751,1.10506403409828,1.1474691819789,1.18987432985953),
 .UNSPECIFIED.);
#63=VERTEX_POINT($,#172);
#64=VERTEX_POINT($,#208);
#65=VERTEX_POINT($,#246);
#66=VERTEX_POINT($,#249);
#67=VERTEX_POINT($,#252);
#68=VERTEX_POINT($,#255);
#69=VERTEX_POINT($,#258);
#70=VERTEX_POINT($,#260);
#71=VERTEX_POINT($,#264);
#72=EDGE_CURVE($,#63,#63,#61,.T.);
#73=EDGE_CURVE($,#64,#64,#62,.T.);
#74=EDGE_CURVE($,#65,#65,#15,.T.);
#75=EDGE_CURVE($,#66,#66,#16,.T.);
#76=EDGE_CURVE($,#67,#67,#17,.F.);
#77=EDGE_CURVE($,#68,#68,#18,.T.);
#78=EDGE_CURVE($,#69,#69,#19,.T.);
#79=EDGE_CURVE($,#70,#70,#20,.T.);
#80=EDGE_CURVE($,#71,#71,#21,.T.);
#81=ORIENTED_EDGE($,*,*,#72,.T.);
#82=ORIENTED_EDGE($,*,*,#73,.F.);
#83=ORIENTED_EDGE($,*,*,#72,.F.);
#84=ORIENTED_EDGE($,*,*,#74,.T.);
#85=ORIENTED_EDGE($,*,*,#74,.F.);
#86=ORIENTED_EDGE($,*,*,#75,.T.);
#87=ORIENTED_EDGE($,*,*,#76,.T.);
#88=ORIENTED_EDGE($,*,*,#77,.T.);
#89=ORIENTED_EDGE($,*,*,#75,.F.);
#90=ORIENTED_EDGE($,*,*,#78,.F.);
#91=ORIENTED_EDGE($,*,*,#79,.T.);
#92=ORIENTED_EDGE($,*,*,#77,.F.);
#93=ORIENTED_EDGE($,*,*,#78,.T.);
#94=ORIENTED_EDGE($,*,*,#80,.T.);
#95=ORIENTED_EDGE($,*,*,#73,.T.);
#96=ORIENTED_EDGE($,*,*,#79,.F.);
#97=ORIENTED_EDGE($,*,*,#76,.F.);
#98=ORIENTED_EDGE($,*,*,#80,.F.);
#99=CYLINDRICAL_SURFACE($,#117,1.1);
#100=CYLINDRICAL_SURFACE($,#118,1.99000000000032);
#101=CYLINDRICAL_SURFACE($,#121,1.1);
#102=CYLINDRICAL_SURFACE($,#130,1.4);
#103=CYLINDRICAL_SURFACE($,#131,2.);
#104=ADVANCED_FACE($,(#33,#25),#99,.F.);
#105=ADVANCED_FACE($,(#34),#100,.T.);
#106=ADVANCED_FACE($,(#35),#22,.T.);
#107=ADVANCED_FACE($,(#36,#26),#101,.T.);
#108=ADVANCED_FACE($,(#37),#23,.F.);
#109=ADVANCED_FACE($,(#38,#27),#24,.F.);
#110=ADVANCED_FACE($,(#39,#28),#13,.T.);
#111=ADVANCED_FACE($,(#40,#29),#102,.T.);
#112=ADVANCED_FACE($,(#41,#30,#31),#103,.T.);
#113=ADVANCED_FACE($,(#42,#32),#14,.T.);
#114=CLOSED_SHELL($,(#104,#105,#106,#107,#108,#109,#110,#111,#112,#113));
#115=MANIFOLD_SOLID_BREP('LS208163',#114);
#116=AXIS2_PLACEMENT_3D('placement',#170,#134,#135);
#117=AXIS2_PLACEMENT_3D($,#171,#136,#137);
#118=AXIS2_PLACEMENT_3D($,#244,#138,#139);
#119=AXIS2_PLACEMENT_3D($,#245,#140,#141);
#120=AXIS2_PLACEMENT_3D($,#247,#142,#143);
#121=AXIS2_PLACEMENT_3D($,#248,#144,#145);
#122=AXIS2_PLACEMENT_3D($,#250,#146,#147);
#123=AXIS2_PLACEMENT_3D($,#251,#148,#149);
#124=AXIS2_PLACEMENT_3D($,#253,#150,#151);
#125=AXIS2_PLACEMENT_3D($,#254,#152,#153);
#126=AXIS2_PLACEMENT_3D($,#256,#154,#155);
#127=AXIS2_PLACEMENT_3D($,#257,#156,#157);
#128=AXIS2_PLACEMENT_3D($,#259,#158,#159);
#129=AXIS2_PLACEMENT_3D($,#261,#160,#161);
#130=AXIS2_PLACEMENT_3D($,#262,#162,#163);
#131=AXIS2_PLACEMENT_3D($,#263,#164,#165);
#132=AXIS2_PLACEMENT_3D($,#265,#166,#167);
#133=AXIS2_PLACEMENT_3D($,#266,#168,#169);
#134=DIRECTION('axis',(0.,0.,1.));
#135=DIRECTION('refdir',(1.,0.,0.));
#136=DIRECTION('center_axis',(0.,0.,1.));
#137=DIRECTION('ref_axis',(-1.,0.,0.));
#138=DIRECTION('center_axis',(1.,0.,0.));
#139=DIRECTION('ref_axis',(0.,0.,1.));
#140=DIRECTION('center_axis',(-1.,6.12303176911189E-017,0.));
#141=DIRECTION('ref_axis',(0.,-1.,0.));
#142=DIRECTION('center_axis',(-1.,6.12303176911189E-017,0.));
#143=DIRECTION('ref_axis',(6.12303176911189E-017,1.,0.));
#144=DIRECTION('center_axis',(-1.,0.,0.));
#145=DIRECTION('ref_axis',(0.,0.,-1.));
#146=DIRECTION('center_axis',(-1.,6.12303176911189E-017,0.));
#147=DIRECTION('ref_axis',(6.12303176911189E-017,1.,0.));
#148=DIRECTION('center_axis',(-1.,0.,0.));
#149=DIRECTION('ref_axis',(0.,0.,1.));
#150=DIRECTION('center_axis',(-1.,0.,0.));
#151=DIRECTION('ref_axis',(0.,0.,1.));
#152=DIRECTION('center_axis',(1.,0.,0.));
#153=DIRECTION('ref_axis',(0.,0.,-1.));
#154=DIRECTION('center_axis',(-1.,0.,0.));
#155=DIRECTION('ref_axis',(0.,0.,1.));
#156=DIRECTION('center_axis',(1.,0.,0.));
#157=DIRECTION('ref_axis',(0.,0.,-1.));
#158=DIRECTION('center_axis',(-1.,0.,0.));
#159=DIRECTION('ref_axis',(0.,0.,1.));
#160=DIRECTION('center_axis',(-1.,0.,0.));
#161=DIRECTION('ref_axis',(0.,0.,1.));
#162=DIRECTION('center_axis',(1.,0.,0.));
#163=DIRECTION('ref_axis',(0.,0.,1.));
#164=DIRECTION('center_axis',(1.,0.,0.));
#165=DIRECTION('ref_axis',(0.,0.,1.));
#166=DIRECTION('center_axis',(-1.,0.,0.));
#167=DIRECTION('ref_axis',(0.,0.,1.));
#168=DIRECTION('center_axis',(-1.,0.,0.));
#169=DIRECTION('ref_axis',(0.,0.,1.));
#170=CARTESIAN_POINT('',(0.,0.,0.));
#171=CARTESIAN_POINT('Origin',(-2.25,0.,22.7156333832011));
#172=CARTESIAN_POINT('',(-3.35,0.,1.99000000000032));
#173=CARTESIAN_POINT('Ctrl Pts',(-3.35,2.63677968348475E-016,1.99000000000032));
#174=CARTESIAN_POINT('Ctrl Pts',(-3.35,0.141385865987989,1.99000000000032));
#175=CARTESIAN_POINT('Ctrl Pts',(-3.32110783670228,0.290163168245596,1.97358480743151));
#176=CARTESIAN_POINT('Ctrl Pts',(-3.20781584403816,0.560406463078456,1.91446499964072));
#177=CARTESIAN_POINT('Ctrl Pts',(-3.12356896865152,0.68206594995889,1.87235350600976));
#178=CARTESIAN_POINT('Ctrl Pts',(-2.9316480305456,0.873986888064808,1.79085543854073));
#179=CARTESIAN_POINT('Ctrl Pts',(-2.81011712270092,0.957934567547627,1.74550200448019));
#180=CARTESIAN_POINT('Ctrl Pts',(-2.5404876612333,1.0709743760851,1.67852026449927));
#181=CARTESIAN_POINT('Ctrl Pts',(-2.39200296224647,1.1,1.65834254603845));
#182=CARTESIAN_POINT('Ctrl Pts',(-2.10799703775353,1.1,1.65834254603845));
#183=CARTESIAN_POINT('Ctrl Pts',(-1.9595123387667,1.0709743760851,1.67852026449927));
#184=CARTESIAN_POINT('Ctrl Pts',(-1.68988287729908,0.957934567547627,1.74550200448019));
#185=CARTESIAN_POINT('Ctrl Pts',(-1.5683519694544,0.873986888064807,1.79085543854073));
#186=CARTESIAN_POINT('Ctrl Pts',(-1.37643103134848,0.682065949958889,1.87235350600976));
#187=CARTESIAN_POINT('Ctrl Pts',(-1.29218415596184,0.560406463078455,1.91446499964072));
#188=CARTESIAN_POINT('Ctrl Pts',(-1.17889216329772,0.290163168245596,1.97358480743151));
#189=CARTESIAN_POINT('Ctrl Pts',(-1.15,0.141385865987989,1.99000000000032));
#190=CARTESIAN_POINT('Ctrl Pts',(-1.15,-0.141385865987989,1.99000000000032));
#191=CARTESIAN_POINT('Ctrl Pts',(-1.17889216329772,-0.290163168245596,1.97358480743151));
#192=CARTESIAN_POINT('Ctrl Pts',(-1.29218415596184,-0.560406463078455,1.91446499964072));
#193=CARTESIAN_POINT('Ctrl Pts',(-1.37643103134848,-0.682065949958889,1.87235350600976));
#194=CARTESIAN_POINT('Ctrl Pts',(-1.5683519694544,-0.873986888064807,1.79085543854073));
#195=CARTESIAN_POINT('Ctrl Pts',(-1.68988287729908,-0.957934567547626,1.74550200448019));
#196=CARTESIAN_POINT('Ctrl Pts',(-1.9595123387667,-1.0709743760851,1.67852026449927));
#197=CARTESIAN_POINT('Ctrl Pts',(-2.10799703775353,-1.1,1.65834254603845));
#198=CARTESIAN_POINT('Ctrl Pts',(-2.25,-1.1,1.65834254603845));
#199=CARTESIAN_POINT('Ctrl Pts',(-2.39200296224647,-1.1,1.65834254603845));
#200=CARTESIAN_POINT('Ctrl Pts',(-2.5404876612333,-1.0709743760851,1.67852026449927));
#201=CARTESIAN_POINT('Ctrl Pts',(-2.81011712270092,-0.957934567547627,1.74550200448019));
#202=CARTESIAN_POINT('Ctrl Pts',(-2.9316480305456,-0.873986888064807,1.79085543854073));
#203=CARTESIAN_POINT('Ctrl Pts',(-3.12356896865152,-0.682065949958888,1.87235350600976));
#204=CARTESIAN_POINT('Ctrl Pts',(-3.20781584403816,-0.560406463078454,1.91446499964072));
#205=CARTESIAN_POINT('Ctrl Pts',(-3.32110783670228,-0.290163168245595,1.97358480743151));
#206=CARTESIAN_POINT('Ctrl Pts',(-3.35,-0.141385865987988,1.99000000000032));
#207=CARTESIAN_POINT('Ctrl Pts',(-3.35,2.63677968348475E-016,1.99000000000032));
#208=CARTESIAN_POINT('',(-1.15,0.,2.));
#209=CARTESIAN_POINT('Ctrl Pts',(-1.15,-1.38777878078145E-016,2.));
#210=CARTESIAN_POINT('Ctrl Pts',(-1.15,-0.141350492935409,2.));
#211=CARTESIAN_POINT('Ctrl Pts',(-1.17887807667247,-0.290111648959495,1.98367299801048));
#212=CARTESIAN_POINT('Ctrl Pts',(-1.29215803760559,-0.560362072231338,1.9248682195749));
#213=CARTESIAN_POINT('Ctrl Pts',(-1.3764084301234,-0.682043348733803,1.88298278060245));
#214=CARTESIAN_POINT('Ctrl Pts',(-1.56836483388505,-0.873999752495457,1.80195006321179));
#215=CARTESIAN_POINT('Ctrl Pts',(-1.68991983397178,-0.95795749906678,1.75687730312268));
#216=CARTESIAN_POINT('Ctrl Pts',(-1.95957061431257,-1.07099136732809,1.69034861021254));
#217=CARTESIAN_POINT('Ctrl Pts',(-2.10804708106409,-1.1,1.67032930884901));
#218=CARTESIAN_POINT('Ctrl Pts',(-2.25,-1.1,1.67032930884901));
#219=CARTESIAN_POINT('Ctrl Pts',(-2.39195291893591,-1.1,1.67032930884901));
#220=CARTESIAN_POINT('Ctrl Pts',(-2.54042938568743,-1.07099136732809,1.69034861021254));
#221=CARTESIAN_POINT('Ctrl Pts',(-2.81008016602822,-0.957957499066779,1.75687730312268));
#222=CARTESIAN_POINT('Ctrl Pts',(-2.93163516611495,-0.873999752495456,1.80195006321179));
#223=CARTESIAN_POINT('Ctrl Pts',(-3.1235915698766,-0.682043348733802,1.88298278060245));
#224=CARTESIAN_POINT('Ctrl Pts',(-3.20784196239442,-0.560362072231337,1.9248682195749));
#225=CARTESIAN_POINT('Ctrl Pts',(-3.32112192332753,-0.290111648959494,1.98367299801048));
#226=CARTESIAN_POINT('Ctrl Pts',(-3.35,-0.141350492935408,2.));
#227=CARTESIAN_POINT('Ctrl Pts',(-3.35,0.141350492935409,2.));
#228=CARTESIAN_POINT('Ctrl Pts',(-3.32112192332753,0.290111648959494,1.98367299801048));
#229=CARTESIAN_POINT('Ctrl Pts',(-3.20784196239441,0.560362072231338,1.9248682195749));
#230=CARTESIAN_POINT('Ctrl Pts',(-3.1235915698766,0.682043348733803,1.88298278060245));
#231=CARTESIAN_POINT('Ctrl Pts',(-2.93163516611495,0.873999752495457,1.80195006321179));
#232=CARTESIAN_POINT('Ctrl Pts',(-2.81008016602822,0.957957499066779,1.75687730312268));
#233=CARTESIAN_POINT('Ctrl Pts',(-2.54042938568743,1.07099136732809,1.69034861021254));
#234=CARTESIAN_POINT('Ctrl Pts',(-2.39195291893591,1.1,1.67032930884901));
#235=CARTESIAN_POINT('Ctrl Pts',(-2.10804708106409,1.1,1.67032930884901));
#236=CARTESIAN_POINT('Ctrl Pts',(-1.95957061431257,1.07099136732809,1.69034861021254));
#237=CARTESIAN_POINT('Ctrl Pts',(-1.68991983397178,0.95795749906678,1.75687730312268));
#238=CARTESIAN_POINT('Ctrl Pts',(-1.56836483388505,0.873999752495457,1.80195006321179));
#239=CARTESIAN_POINT('Ctrl Pts',(-1.3764084301234,0.682043348733803,1.88298278060245));
#240=CARTESIAN_POINT('Ctrl Pts',(-1.29215803760559,0.560362072231338,1.9248682195749));
#241=CARTESIAN_POINT('Ctrl Pts',(-1.17887807667247,0.290111648959495,1.98367299801048));
#242=CARTESIAN_POINT('Ctrl Pts',(-1.15,0.141350492935409,2.));
#243=CARTESIAN_POINT('Ctrl Pts',(-1.15,9.89948863624098E-016,2.));
#244=CARTESIAN_POINT('Origin',(0.,0.,1.83690953073357E-015));
#245=CARTESIAN_POINT('Origin',(-27.,0.,1.3010426069826E-015));
#246=CARTESIAN_POINT('',(-27.,1.1,1.3010426069826E-015));
#247=CARTESIAN_POINT('Origin',(-27.,0.,1.3010426069826E-015));
#248=CARTESIAN_POINT('Origin',(-27.,0.,1.3010426069826E-015));
#249=CARTESIAN_POINT('',(-22.,1.1,1.3010426069826E-015));
#250=CARTESIAN_POINT('Origin',(-22.,0.,1.3010426069826E-015));
#251=CARTESIAN_POINT('Origin',(0.,0.,0.));
#252=CARTESIAN_POINT('',(0.,0.,1.6));
#253=CARTESIAN_POINT('Origin',(0.,0.,0.));
#254=CARTESIAN_POINT('Origin',(-22.,0.,1.4));
#255=CARTESIAN_POINT('',(-22.,0.,1.4));
#256=CARTESIAN_POINT('Origin',(-22.,0.,0.));
#257=CARTESIAN_POINT('Origin',(-19.4,0.,0.));
#258=CARTESIAN_POINT('',(-20.,0.,1.4));
#259=CARTESIAN_POINT('Origin',(-20.,0.,0.));
#260=CARTESIAN_POINT('',(-19.4,0.,2.));
#261=CARTESIAN_POINT('Origin',(-19.4,0.,0.));
#262=CARTESIAN_POINT('Origin',(-22.,0.,0.));
#263=CARTESIAN_POINT('Origin',(-22.,0.,0.));
#264=CARTESIAN_POINT('',(-0.4,0.,2.));
#265=CARTESIAN_POINT('Origin',(-0.4,0.,0.));
#266=CARTESIAN_POINT('Origin',(-0.4,0.,0.));
#267=UNCERTAINTY_MEASURE_WITH_UNIT(LENGTH_MEASURE(0.01),#269,
'DISTANCE_ACCURACY_VALUE',
'Maximum model space distance between geometric entities at asserted c
onnectivities');
#268=(
GEOMETRIC_REPRESENTATION_CONTEXT(3)
GLOBAL_UNCERTAINTY_ASSIGNED_CONTEXT((#267))
GLOBAL_UNIT_ASSIGNED_CONTEXT((#269,#271,#270))
REPRESENTATION_CONTEXT('','3D')
);
#269=(
LENGTH_UNIT()
NAMED_UNIT(*)
SI_UNIT(.MILLI.,.METRE.)
);
#270=(
NAMED_UNIT(*)
SI_UNIT($,.STERADIAN.)
SOLID_ANGLE_UNIT()
);
#271=(
NAMED_UNIT(*)
PLANE_ANGLE_UNIT()
SI_UNIT($,.RADIAN.)
);
#272=SHAPE_DEFINITION_REPRESENTATION(#273,#274);
#273=PRODUCT_DEFINITION_SHAPE('',$,#276);
#274=SHAPE_REPRESENTATION('',(#116),#268);
#275=PRODUCT_DEFINITION_CONTEXT('3D Mechanical Parts',#279,'design');
#276=PRODUCT_DEFINITION('LS208163','LS208163',#277,#275);
#277=PRODUCT_DEFINITION_FORMATION('',$,#281);
#278=APPLICATION_PROTOCOL_DEFINITION('international standard',
'automotive_design',2009,#279);
#279=APPLICATION_CONTEXT(
'Core Data for Automotive Mechanical Design Process');
#280=PRODUCT_CONTEXT('3D Mechanical Parts',#279,'mechanical');
#281=PRODUCT('LS208163','LS208163',$,(#280));
#282=PRESENTATION_STYLE_ASSIGNMENT((#284));
#283=PRESENTATION_STYLE_ASSIGNMENT((#285));
#284=SURFACE_STYLE_USAGE(.BOTH.,#286);
#285=SURFACE_STYLE_USAGE(.BOTH.,#287);
#286=SURFACE_SIDE_STYLE($,(#288));
#287=SURFACE_SIDE_STYLE($,(#289));
#288=SURFACE_STYLE_FILL_AREA(#290);
#289=SURFACE_STYLE_FILL_AREA(#291);
#290=FILL_AREA_STYLE($,(#292));
#291=FILL_AREA_STYLE($,(#293));
#292=FILL_AREA_STYLE_COLOUR($,#294);
#293=FILL_AREA_STYLE_COLOUR($,#295);
#294=COLOUR_RGB('',0.749019607843137,0.749019607843137,0.749019607843137);
#295=COLOUR_RGB('',0.752941176470588,0.752941176470588,0.752941176470588);
ENDSEC;
END-ISO-10303-21;
